Опрос Баста

Кто из них круче?
 
Аккорды Баста - Так Плачет Весна

Так играть легче чем в оригинале
Am C6 F E
1|-------------------|--------------------|---------------------|-----------------------|
2|---------------1--|----------------1---|-----------------1--|-------------------0---|
3|-----------2------|-----------0--------|------------2-------|--------------1--------|
4|-------2----------|-------2------------|-------3------------|---------2-------------|
5|---0--------------|--------------------|---------------------|----2------------------|
6|------------------|----3---------------|---1----------------|------------------------|

А в оригинале на последнем такте играется так
1|--------------------|
2|--------3/5----1--|
3|--------------------|
4|--------------------|
5|---2----------------|
6|--------------------|

 

Баста вконтакте

Поддержите сайт, вступите в группу Ноггано ака Баста В контакте. Каждый 3000 вступивший получает бесплатно наклейку Ноггано

баста ноггано вконтакте в контакте

Баста