Опрос Баста

Кто из них круче?
 
Аккорды Баста - Я за тебя молюсь

1|------------------------------------ |
2|--------------4-------------4------ |
3|-----------3------------3---------- |
4|-------3------------3-------------- |
5|---0------------0------------------ |
6|------------------------------------ |

1|------------------------------------ |
2|--------------2-------------2------ |
3|-----------3------------3---------- |
4|-------4------------4-------------- |
5|---0------------0------------------ |
6|------------------------------------ |

1|------------------------------------ |
2|--------------2-------------2------ |
3|-----------1------------1---------- |
4|-------1------------1-------------- |
5|---0------------0------------------ |
6|------------------------------------ |

1|------------------------------------ |
2|--------------1-------------1------ |
3|-----------2------------2---------- |
4|-------3------------3-------------- |
5|---0------------0------------------ |
6|------------------------------------ |

 

Баста вконтакте

Поддержите сайт, вступите в группу Ноггано ака Баста В контакте. Каждый 3000 вступивший получает бесплатно наклейку Ноггано

баста ноггано вконтакте в контакте

Баста