Опрос Баста

Кто из них круче?
 
Аккорды Баста - Я так хотел

1|----------------8------ |
2|------------5---------- |
3|--------5-------------- |
4|----------------------- |
5|----------------------- |
6|---5------------------- |

1|----------------8------ |
2|------------5---------- |
3|--------5-------------- |
4|----------------------- |
5|---8------------------- |
6|----------------------- |

1|----------------8------ |
2|------------5---------- |
3|--------5-------------- |
4|----------------------- |
5|----------------------- |
6|---8------------------- |

1|-----------------7----- |
2|----------------------- |
3|------------7---------- |
4|--------9-------------- |
5|---7------------------- |
6|----------------------- | далее по кругу

 

Баста вконтакте

Поддержите сайт, вступите в группу Ноггано ака Баста В контакте. Каждый 3000 вступивший получает бесплатно наклейку Ноггано

баста ноггано вконтакте в контакте

Баста